Leisure winter Casual Navy Old Skirt wCw6Zaq Leisure winter Casual Navy Old Skirt wCw6Zaq
') no-repeat;width:20px;height:52px;background-size:20px 20px;top:16px;right:-4px}._2V-UX{margin-top:12px}.Jy0mZ button{width:260px;margin:0 auto}._10_zj{padding:20px 20px 4px}._2KjJC{margin:20px auto;font-size:24px;line-height:24px}._1d02B,._2KjJC{text-align:center;text-transform:uppercase;font-weight:700}._1d02B{font-size:36px;line-height:36px;margin:30px auto 20px}._28f8p{display:-webkit-box;display:-ms-flexbox;display:flex;width:460px;margin:auto;background-color:#f5f5f5;border-radius:4px;padding:14px 30px 16px}._28f8p>*{width:50%}._28f8p span{display:inline-block;position:relative;padding-left:24px;font-size:13px;margin-top:2px}._28f8p span:after{content:"";background:url(https://tabs.ultimate-guitar.com/static/public/build//ug_react/201809/mark.3a6f88b2.svg) no-repeat;position:absolute;left:0;top:2px;width:16px;height:12px;background-size:contain}.qysxa{text-align:center}
Materials 100% Cotton
Leisure Casual winter Skirt Navy Old

Leisure winter Casual Navy Old Skirt wCw6Zaq

by Tame Impala
winter Leisure Old Casual Navy Skirt 14,889 views, added to favorites 414 times
Difficulty: intermediate
Casual Leisure Skirt Navy Old winter
Tame Impala ///// Eventually ///// Currents

Bass Tab



[Intro]

G|------------------------------------------------|
D|------------------------------------------------|
A|-------7-----------5-----------7-----------5----|
E|—-8-7–--------8-7---------8-7---------8-7-------|


[Verse]

G|------------------------------------------------|
D|------------------------------------------------|
A|--10----8----------------------7-----------5----|
E|--------------------------8-7---------8-7-------|

G|--------------10--------------------------------|
D|---------10/12----------------------------------|
A|--10---------------------------7-----------5----|
E|------------------8--10---8-7---------8-7-------|

G|------------------------------------------------|
D|------------------------------------------------|
A|-----10--8---------------------7-----------5----|
E|--------------------------8-7---------8-7-------|

G|--------------10--------------------------------|
D|---------10/12----------------------------------|
A|-----10------------------------7-----------5----|
E|--------------------------8-7---------8-7-------|


but I know that i'd be happier, and I know you will too...


[Chorus]

(1:34) Eventually...

G|-------------------------------|
D|---------------7---------------|
A|--8-------------------7--------|
E|-------------------------------|

G|-------------------------------|
D|-----------5h6h7---------------|
A|--8---------------5h6h7--------|
E|-------------------------------|

-

G|----------12/14-12-14--------12/14-12-14--------|
D|----------------------14-----------------14\12--|
A|------------------------------------------------|
E|------------------------------------------------|

G|----------12/14-12-14--------12/14-12-14--------|
D|----------------------14-----------------14\12--|
A|------------------------------------------------|
E|------------------------------------------------|


(2:14) Wish I could turn you ... 
 
G|--------------10/12-10---7/9--------------9------------7----|
D|-------------------------------10---10-9---------10---------|
A|-----10--8--------------------------------------------------|
E|------------------------------------------------------------|

G|--------------10----10/12-10---7/9-\7---------------------------|
D|---------10/12-----------------------h9-------------------------|
A|---10------------------------------------------7-----------5----|
E|------------------------------------------8-7---------8-7-------|

but I know that i'd be happier, and I know you will too...


[Chorus]

(2:58) Eventually...  (the bass kind of fades out here, but you can just jam around it) 

G|-------------------------------|
D|---------------7---------------|
A|--8-------------------7--------|
E|-------------------------------|

G|-------------------------------|
D|-----------5h6h7---------------|
A|--8---------------5h6h7--------|
E|-------------------------------|



************************************

| h  Hammer-on
| /  Slide up
| \  Slide down 

************************************
By helping UG you make the world better... and earn IQ
Suggest correction
Please rate this tab
Skirt Leisure Old winter Navy Casual  
Navy winter Casual Old Skirt Leisure